  0
SECTION
  2
HEADER
  9
$ACADVER
  1
AC1015
  9
$ACADMAINTVER
 70
     6
  9
$DWGCODEPAGE
  3
ANSI_1254
  9
$INSBASE
 10
0.0
 20
0.0
 30
0.0
  9
$EXTMIN
 10
0.0
 20
0.0
 30
0.0
  9
$EXTMAX
 10
279.4
 20
215.9
 30
0.0
  9
$LIMMIN
 10
0.0
 20
0.0
  9
$LIMMAX
 10
279.4
 20
215.9
  9
$ORTHOMODE
 70
     0
  9
$REGENMODE
 70
     1
  9
$FILLMODE
 70
     1
  9
$QTEXTMODE
 70
     0
  9
$MIRRTEXT
 70
     1
  9
$LTSCALE
 40
1.0
  9
$ATTMODE
 70
     1
  9
$TEXTSIZE
 40
3.5
  9
$TRACEWID
 40
1.0
  9
$TEXTSTYLE
  7
Standard
  9
$CLAYER
  8
0
  9
$CELTYPE
  6
ByLayer
  9
$CECOLOR
 62
   256
  9
$CELTSCALE
 40
1.0
  9
$DISPSILH
 70
     0
  9
$DIMSCALE
 40
1.0
  9
$DIMASZ
 40
3.5
  9
$DIMEXO
 40
1.0
  9
$DIMDLI
 40
3.75
  9
$DIMRND
 40
0.0
  9
$DIMDLE
 40
0.0
  9
$DIMEXE
 40
1.0
  9
$DIMTP
 40
0.0
  9
$DIMTM
 40
0.0
  9
$DIMTXT
 40
3.5
  9
$DIMCEN
 40
2.5
  9
$DIMTSZ
 40
0.0
  9
$DIMTOL
 70
     0
  9
$DIMLIM
 70
     0
  9
$DIMTIH
 70
     1
  9
$DIMTOH
 70
     1
  9
$DIMSE1
 70
     0
  9
$DIMSE2
 70
     0
  9
$DIMTAD
 70
     1
  9
$DIMZIN
 70
     0
  9
$DIMBLK
  1

  9
$DIMASO
 70
     1
  9
$DIMSHO
 70
     1
  9
$DIMPOST
  1

  9
$DIMAPOST
  1

  9
$DIMALT
 70
     0
  9
$DIMALTD
 70
     3
  9
$DIMALTF
 40
0.0393700787
  9
$DIMLFAC
 40
1.0
  9
$DIMTOFL
 70
     1
  9
$DIMTVP
 40
0.0
  9
$DIMTIX
 70
     0
  9
$DIMSOXD
 70
     0
  9
$DIMSAH
 70
     0
  9
$DIMBLK1
  1

  9
$DIMBLK2
  1

  9
$DIMSTYLE
  2
ISO-25
  9
$DIMCLRD
 70
     0
  9
$DIMCLRE
 70
     0
  9
$DIMCLRT
 70
     0
  9
$DIMTFAC
 40
1.0
  9
$DIMGAP
 40
1.524
  9
$DIMJUST
 70
     0
  9
$DIMSD1
 70
     0
  9
$DIMSD2
 70
     0
  9
$DIMTOLJ
 70
     0
  9
$DIMTZIN
 70
     0
  9
$DIMALTZ
 70
     0
  9
$DIMALTTZ
 70
     0
  9
$DIMUPT
 70
     0
  9
$DIMDEC
 70
     2
  9
$DIMTDEC
 70
     2
  9
$DIMALTU
 70
     2
  9
$DIMALTTD
 70
     3
  9
$DIMTXSTY
  7
Standard
  9
$DIMAUNIT
 70
     0
  9
$DIMADEC
 70
     2
  9
$DIMALTRND
 40
0.0
  9
$DIMAZIN
 70
     0
  9
$DIMDSEP
 70
    44
  9
$DIMATFIT
 70
     3
  9
$DIMFRAC
 70
     0
  9
$DIMLDRBLK
  1

  9
$DIMLUNIT
 70
     2
  9
$DIMLWD
 70
    -2
  9
$DIMLWE
 70
    -2
  9
$DIMTMOVE
 70
     0
  9
$LUNITS
 70
     2
  9
$LUPREC
 70
     2
  9
$SKETCHINC
 40
1.0
  9
$FILLETRAD
 40
10.0
  9
$AUNITS
 70
     0
  9
$AUPREC
 70
     2
  9
$MENU
  1
.
  9
$ELEVATION
 40
0.0
  9
$PELEVATION
 40
0.0
  9
$THICKNESS
 40
0.0
  9
$LIMCHECK
 70
     0
  9
$CHAMFERA
 40
0.0
  9
$CHAMFERB
 40
0.0
  9
$CHAMFERC
 40
0.0
  9
$CHAMFERD
 40
0.0
  9
$SKPOLY
 70
     0
  9
$TDCREATE
 40
2458985.699163901
  9
$TDUCREATE
 40
2458985.574163901
  9
$TDUPDATE
 40
2458985.699164155
  9
$TDUUPDATE
 40
2458985.574164155
  9
$TDINDWG
 40
0.0000000116
  9
$TDUSRTIMER
 40
0.0000000116
  9
$USRTIMER
 70
     1
  9
$ANGBASE
 50
0.0
  9
$ANGDIR
 70
     0
  9
$PDMODE
 70
     0
  9
$PDSIZE
 40
-1.0
  9
$PLINEWID
 40
0.0
  9
$SPLFRAME
 70
     0
  9
$SPLINETYPE
 70
     6
  9
$SPLINESEGS
 70
     8
  9
$HANDSEED
  5
EE
  9
$SURFTAB1
 70
     6
  9
$SURFTAB2
 70
     6
  9
$SURFTYPE
 70
     6
  9
$SURFU
 70
     6
  9
$SURFV
 70
     6
  9
$UCSBASE
  2

  9
$UCSNAME
  2

  9
$UCSORG
 10
0.0
 20
0.0
 30
0.0
  9
$UCSXDIR
 10
1.0
 20
0.0
 30
0.0
  9
$UCSYDIR
 10
0.0
 20
1.0
 30
0.0
  9
$UCSORTHOREF
  2

  9
$UCSORTHOVIEW
 70
     0
  9
$UCSORGTOP
 10
0.0
 20
0.0
 30
0.0
  9
$UCSORGBOTTOM
 10
0.0
 20
0.0
 30
0.0
  9
$UCSORGLEFT
 10
0.0
 20
0.0
 30
0.0
  9
$UCSORGRIGHT
 10
0.0
 20
0.0
 30
0.0
  9
$UCSORGFRONT
 10
0.0
 20
0.0
 30
0.0
  9
$UCSORGBACK
 10
0.0
 20
0.0
 30
0.0
  9
$PUCSBASE
  2

  9
$PUCSNAME
  2

  9
$PUCSORG
 10
0.0
 20
0.0
 30
0.0
  9
$PUCSXDIR
 10
1.0
 20
0.0
 30
0.0
  9
$PUCSYDIR
 10
0.0
 20
1.0
 30
0.0
  9
$PUCSORTHOREF
  2

  9
$PUCSORTHOVIEW
 70
     0
  9
$PUCSORGTOP
 10
0.0
 20
0.0
 30
0.0
  9
$PUCSORGBOTTOM
 10
0.0
 20
0.0
 30
0.0
  9
$PUCSORGLEFT
 10
0.0
 20
0.0
 30
0.0
  9
$PUCSORGRIGHT
 10
0.0
 20
0.0
 30
0.0
  9
$PUCSORGFRONT
 10
0.0
 20
0.0
 30
0.0
  9
$PUCSORGBACK
 10
0.0
 20
0.0
 30
0.0
  9
$USERI1
 70
     0
  9
$USERI2
 70
     0
  9
$USERI3
 70
     0
  9
$USERI4
 70
     0
  9
$USERI5
 70
     0
  9
$USERR1
 40
0.0
  9
$USERR2
 40
0.0
  9
$USERR3
 40
0.0
  9
$USERR4
 40
0.0
  9
$USERR5
 40
0.0
  9
$WORLDVIEW
 70
     1
  9
$SHADEDGE
 70
     3
  9
$SHADEDIF
 70
    70
  9
$TILEMODE
 70
     1
  9
$MAXACTVP
 70
    64
  9
$PINSBASE
 10
0.0
 20
0.0
 30
0.0
  9
$PLIMCHECK
 70
     0
  9
$PEXTMIN
 10
1.0000000000E+20
 20
1.0000000000E+20
 30
1.0000000000E+20
  9
$PEXTMAX
 10
-1.0000000000E+20
 20
-1.0000000000E+20
 30
-1.0000000000E+20
  9
$PLIMMIN
 10
0.0
 20
0.0
  9
$PLIMMAX
 10
420.0
 20
297.0
  9
$UNITMODE
 70
     0
  9
$VISRETAIN
 70
     1
  9
$PLINEGEN
 70
     0
  9
$PSLTSCALE
 70
     1
  9
$TREEDEPTH
 70
  3020
  9
$CMLSTYLE
  2
Standard
  9
$CMLJUST
 70
     0
  9
$CMLSCALE
 40
20.0
  9
$PROXYGRAPHICS
 70
     1
  9
$MEASUREMENT
 70
     1
  9
$CELWEIGHT
370
    -1
  9
$ENDCAPS
280
     0
  9
$JOINSTYLE
280
     0
  9
$LWDISPLAY
290
     1
  9
$INSUNITS
 70
     4
  9
$HYPERLINKBASE
  1

  9
$STYLESHEET
  1

  9
$XEDIT
290
     1
  9
$CEPSNTYPE
380
     0
  9
$PSTYLEMODE
290
     1
  9
$FINGERPRINTGUID
  2
{07208f12-c027-4a50-9e92-f8d0769c5c32}
  9
$VERSIONGUID
  2
{FAEB1C32-E019-11D5-929B-00C0DF256EC4}
  9
$EXTNAMES
290
     1
  9
$PSVPSCALE
 40
0.0
  9
$OLESTARTUP
290
     0
  0
ENDSEC
  0
SECTION
  2
CLASSES
  0
CLASS
  1
ACDBDICTIONARYWDFLT
  2
AcDbDictionaryWithDefault
  3
ObjectDBX Classes
 90
        0
280
     0
281
     0
  0
CLASS
  1
VISUALSTYLE
  2
AcDbVisualStyle
  3
ObjectDBX Classes
 90
     4095
280
     0
281
     0
  0
CLASS
  1
MATERIAL
  2
AcDbMaterial
  3
ObjectDBX Classes
 90
     1153
280
     0
281
     0
  0
CLASS
  1
SCALE
  2
AcDbScale
  3
ObjectDBX Classes
 90
     1153
280
     0
281
     0
  0
CLASS
  1
TABLESTYLE
  2
AcDbTableStyle
  3
ObjectDBX Classes
 90
     4095
280
     0
281
     0
  0
CLASS
  1
MLEADERSTYLE
  2
AcDbMLeaderStyle
  3
ACDB_MLEADERSTYLE_CLASS
 90
     4095
280
     0
281
     0
  0
CLASS
  1
SUN
  2
AcDbSun
  3
SCENEOE
 90
     1153
280
     0
281
     0
  0
CLASS
  1
ACDBPLACEHOLDER
  2
AcDbPlaceHolder
  3
ObjectDBX Classes
 90
        0
280
     0
281
     0
  0
CLASS
  1
LAYOUT
  2
AcDbLayout
  3
ObjectDBX Classes
 90
        0
280
     0
281
     0
  0
ENDSEC
  0
SECTION
  2
TABLES
  0
TABLE
  2
VPORT
  5
8
330
0
100
AcDbSymbolTable
 70
     1
  0
VPORT
  5
29
330
8
100
AcDbSymbolTableRecord
100
AcDbViewportTableRecord
  2
*Active
 70
     0
 10
0.0
 20
0.0
 11
1.0
 21
1.0
 12
139.7
 22
107.95
 13
0.0
 23
0.0
 14
10.0
 24
10.0
 15
10.0
 25
10.0
 16
0.0
 26
0.0
 36
1.0
 17
0.0
 27
0.0
 37
0.0
 40
215.9
 41
1.2941176471
 42
50.0
 43
0.0
 44
0.0
 50
0.0
 51
0.0
 71
     0
 72
  2000
 73
     1
 74
     3
 75
     0
 76
     0
 77
     0
 78
     0
281
     0
 65
     1
110
0.0
120
0.0
130
0.0
111
1.0
121
0.0
131
0.0
112
0.0
122
1.0
132
0.0
 79
     0
146
0.0
  0
ENDTAB
  0
TABLE
  2
LTYPE
  5
5
330
0
100
AcDbSymbolTable
 70
     6
  0
LTYPE
  5
14
330
5
100
AcDbSymbolTableRecord
100
AcDbLinetypeTableRecord
  2
ByBlock
 70
     0
  3

 72
    65
 73
     0
 40
0.0
  0
LTYPE
  5
15
330
5
100
AcDbSymbolTableRecord
100
AcDbLinetypeTableRecord
  2
ByLayer
 70
     0
  3

 72
    65
 73
     0
 40
0.0
  0
LTYPE
  5
16
330
5
100
AcDbSymbolTableRecord
100
AcDbLinetypeTableRecord
  2
Continuous
 70
     0
  3
Solid line
 72
    65
 73
     0
 40
0.0
  0
LTYPE
  5
6E
330
5
100
AcDbSymbolTableRecord
100
AcDbLinetypeTableRecord
  2
HIDDEN
 70
     0
  3
Hidden __ __ __ __ __ __ __ __ __ __ __ __ __ __
 72
    65
 73
     2
 40
1.905
 49
1.27
 74
     0
 49
-0.635
 74
     0
  0
LTYPE
  5
6F
330
5
100
AcDbSymbolTableRecord
100
AcDbLinetypeTableRecord
  2
PHANTOM
 70
     0
  3
Phantom ______  __  __  ______  __  __  ______
 72
    65
 73
     6
 40
12.7
 49
6.35
 74
     0
 49
-1.27
 74
     0
 49
1.27
 74
     0
 49
-1.27
 74
     0
 49
1.27
 74
     0
 49
-1.27
 74
     0
  0
LTYPE
  5
70
330
5
100
AcDbSymbolTableRecord
100
AcDbLinetypeTableRecord
  2
CENTER
 70
     0
  3
Center ____ _ ____ _ ____ _ ____ _ ____ _ ____
 72
    65
 73
     4
 40
10.16
 49
6.35
 74
     0
 49
-1.27
 74
     0
 49
1.27
 74
     0
 49
-1.27
 74
     0
  0
LTYPE
  5
71
330
5
100
AcDbSymbolTableRecord
100
AcDbLinetypeTableRecord
  2
CENTERX2
 70
     0
  3
Center (2x) ________  __  ________  __  _____
 72
    65
 73
     4
 40
20.32
 49
12.7
 74
     0
 49
-2.54
 74
     0
 49
2.54
 74
     0
 49
-2.54
 74
     0
  0
LTYPE
  5
72
330
5
100
AcDbSymbolTableRecord
100
AcDbLinetypeTableRecord
  2
DOT2
 70
     0
  3
Dot (.5x) ........................................
 72
    65
 73
     2
 40
0.635
 49
0.0
 74
     0
 49
-0.635
 74
     0
  0
ENDTAB
  0
TABLE
  2
LAYER
  5
2
330
0
100
AcDbSymbolTable
 70
    17
  0
LAYER
  5
10
330
2
100
AcDbSymbolTableRecord
100
AcDbLayerTableRecord
  2
0
 70
     0
 62
     7
  6
Continuous
370
    -3
390
F
  0
LAYER
  5
73
330
2
100
AcDbSymbolTableRecord
100
AcDbLayerTableRecord
  2
FORMAT
 70
     0
 62
     7
  6
Continuous
370
    -3
390
F
  0
LAYER
  5
74
330
2
100
AcDbSymbolTableRecord
100
AcDbLayerTableRecord
  2
YARDIMCI_GEOMETRI
 70
     0
 62
    -6
  6
Continuous
290
     0
370
    -3
390
F
  0
LAYER
  5
75
330
2
100
AcDbSymbolTableRecord
100
AcDbLayerTableRecord
  2
SAYFA_CERCEVESI
 70
     0
 62
     7
  6
Continuous
370
    25
390
F
  0
LAYER
  5
76
330
2
100
AcDbSymbolTableRecord
100
AcDbLayerTableRecord
  2
ANTET
 70
     0
 62
     7
  6
Continuous
370
    -3
390
F
  0
LAYER
  5
77
330
2
100
AcDbSymbolTableRecord
100
AcDbLayerTableRecord
  2
OLCU
 70
     0
 62
   150
  6
Continuous
370
    -3
390
F
  0
LAYER
  5
78
330
2
100
AcDbSymbolTableRecord
100
AcDbLayerTableRecord
  2
METIN
 70
     0
 62
    96
  6
Continuous
370
    -3
390
F
  0
LAYER
  5
79
330
2
100
AcDbSymbolTableRecord
100
AcDbLayerTableRecord
  2
BALON
 70
     0
 62
     5
  6
Continuous
370
    -3
390
F
  0
LAYER
  5
7A
330
2
100
AcDbSymbolTableRecord
100
AcDbLayerTableRecord
  2
VURGU
 70
     0
 62
     7
  6
Continuous
370
    -3
390
F
  0
LAYER
  5
7B
330
2
100
AcDbSymbolTableRecord
100
AcDbLayerTableRecord
  2
SILIK
 70
     0
 62
     7
  6
Continuous
370
    -3
390
F
  0
LAYER
  5
7C
330
2
100
AcDbSymbolTableRecord
100
AcDbLayerTableRecord
  2
MODEL
 70
     0
 62
     7
  6
Continuous
370
    -3
390
F
  0
LAYER
  5
7D
330
2
100
AcDbSymbolTableRecord
100
AcDbLayerTableRecord
  2
DETAYLANDıRMA
 70
     0
 62
   190
  6
Continuous
370
    -3
390
F
  0
LAYER
  5
7E
330
2
100
AcDbSymbolTableRecord
100
AcDbLayerTableRecord
  2
TOLERANS
 70
     0
 62
   230
  6
Continuous
370
    -3
390
F
  0
LAYER
  5
7F
330
2
100
AcDbSymbolTableRecord
100
AcDbLayerTableRecord
  2
MERKEZ_CIZGILERI
 70
     0
 62
    30
  6
Continuous
370
    -3
390
F
  0
LAYER
  5
80
330
2
100
AcDbSymbolTableRecord
100
AcDbLayerTableRecord
  2
KESIT-DETAY_CIZGILERI
 70
     0
 62
     7
  6
Continuous
370
    -3
390
F
  0
LAYER
  5
81
330
2
100
AcDbSymbolTableRecord
100
AcDbLayerTableRecord
  2
\U+041E\U+0421\U+0415\U+0412\U+042B\U+0415
 70
     0
 62
     7
  6
Continuous
370
    -3
390
F
  0
LAYER
  5
82
330
2
100
AcDbSymbolTableRecord
100
AcDbLayerTableRecord
  2
\U+0412\U+041E\U+0414\U+042F\U+041D\U+042B\U+0415_\U+0417\U+041D\U+0410\U+041A\U+0418
 70
     0
 62
    11
  6
Continuous
370
    -3
390
F
  0
ENDTAB
  0
TABLE
  2
STYLE
  5
3
330
0
100
AcDbSymbolTable
 70
     1
  0
STYLE
  5
11
330
3
100
AcDbSymbolTableRecord
100
AcDbTextStyleTableRecord
  2
Standard
 70
     0
 40
0.0
 41
1.0
 50
0.0
 71
     0
 42
3.5
  3
txt
  4

  0
ENDTAB
  0
TABLE
  2
VIEW
  5
6
330
0
100
AcDbSymbolTable
 70
     0
  0
ENDTAB
  0
TABLE
  2
UCS
  5
7
330
0
100
AcDbSymbolTable
 70
     0
  0
ENDTAB
  0
TABLE
  2
APPID
  5
9
330
0
100
AcDbSymbolTable
 70
     1
  0
APPID
  5
12
330
9
100
AcDbSymbolTableRecord
100
AcDbRegAppTableRecord
  2
ACAD
 70
     0
  0
ENDTAB
  0
TABLE
  2
DIMSTYLE
  5
A
330
0
100
AcDbSymbolTable
 70
     1
100
AcDbDimStyleTable
  0
DIMSTYLE
105
27
330
A
100
AcDbSymbolTableRecord
100
AcDbDimStyleTableRecord
  2
ISO-25
 70
     0
 41
2.5
 42
0.625
 43
3.75
 44
1.25
 73
     0
 74
     0
 77
     1
 78
     8
140
2.5
141
2.5
143
0.0393700787
147
0.625
171
     3
172
     1
178
     0
271
     2
272
     2
274
     3
278
    44
283
     0
284
     8
340
11
  0
ENDTAB
  0
TABLE
  2
BLOCK_RECORD
  5
1
330
0
100
AcDbSymbolTable
 70
     2
  0
BLOCK_RECORD
  5
1F
330
1
100
AcDbSymbolTableRecord
100
AcDbBlockTableRecord
  2
*Model_Space
340
22
  0
BLOCK_RECORD
  5
1B
330
1
100
AcDbSymbolTableRecord
100
AcDbBlockTableRecord
  2
*Paper_Space
340
1E
  0
BLOCK_RECORD
  5
23
330
1
100
AcDbSymbolTableRecord
100
AcDbBlockTableRecord
  2
*Paper_Space0
340
26
  0
BLOCK_RECORD
  5
88
330
1
100
AcDbSymbolTableRecord
100
AcDbBlockTableRecord
  2
SW_CENTERMARKSYMBOL_0
340
0
102
{BLKREFS
331
93
102
}
  0
ENDTAB
  0
ENDSEC
  0
SECTION
  2
BLOCKS
  0
BLOCK
  5
20
330
1F
100
AcDbEntity
  8
0
100
AcDbBlockBegin
  2
*Model_Space
 70
     0
 10
0.0
 20
0.0
 30
0.0
  3
*Model_Space
  1

  0
ENDBLK
  5
21
330
1F
100
AcDbEntity
  8
0
100
AcDbBlockEnd
  0
BLOCK
  5
1C
330
1B
100
AcDbEntity
 67
     1
  8
0
100
AcDbBlockBegin
  2
*Paper_Space
 70
     0
 10
0.0
 20
0.0
 30
0.0
  3
*Paper_Space
  1

  0
ENDBLK
  5
1D
330
1B
100
AcDbEntity
 67
     1
  8
0
100
AcDbBlockEnd
  0
BLOCK
  5
24
330
23
100
AcDbEntity
  8
0
100
AcDbBlockBegin
  2
*Paper_Space0
 70
     0
 10
0.0
 20
0.0
 30
0.0
  3
*Paper_Space0
  1

  0
ENDBLK
  5
25
330
23
100
AcDbEntity
  8
0
100
AcDbBlockEnd
  0
BLOCK
  5
89
330
88
100
AcDbEntity
  8
0
100
AcDbBlockBegin
  2
SW_CENTERMARKSYMBOL_0
 70
     0
 10
0.0
 20
0.0
 30
0.0
  3
SW_CENTERMARKSYMBOL_0
  1

  0
LINE
  5
8B
330
88
100
AcDbEntity
  8
FORMAT
 62
     0
100
AcDbLine
 10
0.0
 20
0.0
 30
0.0
 11
0.0
 21
2.5
 31
0.0
  0
LINE
  5
8C
330
88
100
AcDbEntity
  8
FORMAT
 62
     0
100
AcDbLine
 10
0.0
 20
0.0
 30
0.0
 11
-2.5
 21
0.0
 31
0.0
  0
LINE
  5
8D
330
88
100
AcDbEntity
  8
FORMAT
 62
     0
100
AcDbLine
 10
0.0
 20
0.0
 30
0.0
 11
0.0
 21
-2.5
 31
0.0
  0
LINE
  5
8E
330
88
100
AcDbEntity
  8
FORMAT
 62
     0
100
AcDbLine
 10
0.0
 20
0.0
 30
0.0
 11
2.5
 21
0.0
 31
0.0
  0
LINE
  5
8F
330
88
100
AcDbEntity
  8
FORMAT
 62
     0
100
AcDbLine
 10
0.0
 20
5.0
 30
0.0
 11
0.0
 21
72.5
 31
0.0
  0
LINE
  5
90
330
88
100
AcDbEntity
  8
FORMAT
 62
     0
100
AcDbLine
 10
-5.0
 20
0.0
 30
0.0
 11
-72.5
 21
0.0
 31
0.0
  0
LINE
  5
91
330
88
100
AcDbEntity
  8
FORMAT
 62
     0
100
AcDbLine
 10
0.0
 20
-5.0
 30
0.0
 11
0.0
 21
-72.5
 31
0.0
  0
LINE
  5
92
330
88
100
AcDbEntity
  8
FORMAT
 62
     0
100
AcDbLine
 10
5.0
 20
0.0
 30
0.0
 11
72.5
 21
0.0
 31
0.0
  0
ENDBLK
  5
8A
330
88
100
AcDbEntity
  8
0
100
AcDbBlockEnd
  0
ENDSEC
  0
SECTION
  2
ENTITIES
  0
CIRCLE
  5
83
330
1F
100
AcDbEntity
  8
0
  6
Continuous
 62
     7
370
    25
100
AcDbCircle
 10
139.395004093
 20
107.5851680021
 30
0.0
 40
70.00000000000001
  0
CIRCLE
  5
84
330
1F
100
AcDbEntity
  8
0
  6
Continuous
 62
     7
370
    25
100
AcDbCircle
 10
139.395004093
 20
107.5851680021
 30
0.0
 40
57.30000000000003
  0
CIRCLE
  5
85
330
1F
100
AcDbEntity
  8
0
  6
Continuous
 62
     7
370
    25
100
AcDbCircle
 10
139.395004093
 20
107.5851680021
 30
0.0
 40
56.83733453559923
  0
CIRCLE
  5
86
330
1F
100
AcDbEntity
  8
0
  6
Continuous
 62
     7
370
    25
100
AcDbCircle
 10
139.395004093
 20
107.5851680021
 30
0.0
 40
37.26266546440083
  0
CIRCLE
  5
87
330
1F
100
AcDbEntity
  8
0
  6
Continuous
 62
     7
370
    25
100
AcDbCircle
 10
139.395004093
 20
107.5851680021
 30
0.0
 40
36.80000000000001
  0
INSERT
  5
93
330
1F
100
AcDbEntity
  8
FORMAT
 62
     7
100
AcDbBlockReference
  2
SW_CENTERMARKSYMBOL_0
 10
139.395004093
 20
107.5851680021
 30
0.0
  0
ARC
  5
94
330
1F
100
AcDbEntity
  8
0
  6
Continuous
 62
     7
370
    25
100
AcDbCircle
 10
-120.0194007439
 20
175.5851680021
 30
0.0
 40
2.000000000000028
100
AcDbArc
 50
65.1576108945
 51
90.0
  0
ARC
  5
95
330
1F
100
AcDbEntity
  8
0
  6
Continuous
 62
     7
370
    25
100
AcDbCircle
 10
-120.0194007439
 20
39.5851680021
 30
0.0
 40
2.000000000000007
100
AcDbArc
 50
270.0
 51
294.8423891055
  0
LINE
  5
96
330
1F
100
AcDbEntity
  8
0
  6
Continuous
 62
     7
370
    25
100
AcDbLine
 10
-120.0194009863
 20
177.5851683001
 30
0.0
 11
-211.5788930379
 21
177.5851683001
 31
0.0
  0
LINE
  5
97
330
1F
100
AcDbEntity
  8
0
  6
Continuous
 62
     7
370
    25
100
AcDbLine
 10
-211.5788930379
 20
37.5851677041
 30
0.0
 11
-120.0194009863
 21
37.5851677041
 31
0.0
  0
LINE
  5
98
330
1F
100
AcDbEntity
  8
0
  6
Continuous
 62
     7
370
    25
100
AcDbLine
 10
-119.1791543089
 20
37.7702326755
 30
0.0
 11
-65.9786411844
 21
62.4001012425
 31
0.0
  0
LINE
  5
99
330
1F
100
AcDbEntity
  8
0
  6
Continuous
 62
     7
370
    25
100
AcDbLine
 10
-65.9786411844
 20
152.7702347617
 30
0.0
 11
-119.1791543089
 21
177.4001033287
 31
0.0
  0
ARC
  5
9A
330
1F
100
AcDbEntity
  8
0
  6
Continuous
 62
     7
370
    25
100
AcDbCircle
 10
-65.1383923939
 20
154.5851680021
 30
0.0
 40
2.000000000000018
100
AcDbArc
 50
245.1576108945
 51
270.0
  0
ARC
  5
9B
330
1F
100
AcDbEntity
  8
0
  6
Continuous
 62
     7
370
    25
100
AcDbCircle
 10
-65.1383923939
 20
60.5851680021
 30
0.0
 40
1.999999999999993
100
AcDbArc
 50
90.0
 51
114.8423891055
  0
LINE
  5
9C
330
1F
100
AcDbEntity
  8
0
  6
Continuous
 62
     7
370
    25
100
AcDbLine
 10
13.4211010016
 20
152.5851697903
 30
0.0
 11
-65.1383907818
 21
152.5851697903
 31
0.0
  0
LINE
  5
9D
330
1F
100
AcDbEntity
  8
0
  6
Continuous
 62
     7
370
    25
100
AcDbLine
 10
-65.1383907818
 20
62.585166214
 30
0.0
 11
13.4211010016
 21
62.585166214
 31
0.0
  0
LINE
  5
9E
330
1F
100
AcDbEntity
  8
0
  6
Continuous
 62
     7
370
    25
100
AcDbLine
 10
-211.5788930379
 20
177.5851683001
 30
0.0
 11
-211.5788930379
 21
37.5851677041
 31
0.0
  0
LINE
  5
9F
330
1F
100
AcDbEntity
  8
0
  6
Continuous
 62
     7
370
    25
100
AcDbLine
 10
13.4211010016
 20
152.5851697903
 30
0.0
 11
13.4211010016
 21
62.585166214
 31
0.0
  0
LINE
  5
A0
330
1F
100
AcDbEntity
  8
0
  6
Continuous
 62
     1
370
    25
100
AcDbLine
 10
-119.1791543089
 20
177.4001033287
 30
0.0
 11
-119.1791543089
 21
37.7702326755
 31
0.0
  0
LINE
  5
A1
330
1F
100
AcDbEntity
  8
0
  6
Continuous
 62
     1
370
    25
100
AcDbLine
 10
-120.0194009863
 20
177.5851683001
 30
0.0
 11
-120.0194009863
 21
37.5851677041
 31
0.0
  0
LINE
  5
A2
330
1F
100
AcDbEntity
  8
0
  6
Continuous
 62
     1
370
    25
100
AcDbLine
 10
-65.9786411844
 20
152.7702347617
 30
0.0
 11
-65.9786411844
 21
62.4001012425
 31
0.0
  0
LINE
  5
A3
330
1F
100
AcDbEntity
  8
0
  6
Continuous
 62
     1
370
    25
100
AcDbLine
 10
-65.1383907818
 20
152.5851697903
 30
0.0
 11
-65.1383907818
 21
62.585166214
 31
0.0
  0
ARC
  5
A4
330
1F
100
AcDbEntity
  8
0
  6
Continuous
 62
     7
370
    25
100
AcDbCircle
 10
400.6147919775
 20
39.5851680021
 30
0.0
 40
2.000000000000007
100
AcDbArc
 50
245.1576108945
 51
270.0
  0
ARC
  5
A5
330
1F
100
AcDbEntity
  8
0
  6
Continuous
 62
     7
370
    25
100
AcDbCircle
 10
400.6147919775
 20
175.5851680021
 30
0.0
 40
2.000000000000028
100
AcDbArc
 50
90.0
 51
114.8423891055
  0
LINE
  5
A6
330
1F
100
AcDbEntity
  8
0
  6
Continuous
 62
     7
370
    25
100
AcDbLine
 10
400.61479222
 20
37.5851677041
 30
0.0
 11
492.1742842716
 21
37.5851677041
 31
0.0
  0
LINE
  5
A7
330
1F
100
AcDbEntity
  8
0
  6
Continuous
 62
     7
370
    25
100
AcDbLine
 10
492.1742842716
 20
177.5851683001
 30
0.0
 11
400.61479222
 21
177.5851683001
 31
0.0
  0
LINE
  5
A8
330
1F
100
AcDbEntity
  8
0
  6
Continuous
 62
     7
370
    25
100
AcDbLine
 10
399.7745455426
 20
177.4001033287
 30
0.0
 11
346.5740324181
 21
152.7702347617
 31
0.0
  0
LINE
  5
A9
330
1F
100
AcDbEntity
  8
0
  6
Continuous
 62
     7
370
    25
100
AcDbLine
 10
346.5740324181
 20
62.4001012425
 30
0.0
 11
399.7745455426
 21
37.7702326755
 31
0.0
  0
ARC
  5
AA
330
1F
100
AcDbEntity
  8
0
  6
Continuous
 62
     7
370
    25
100
AcDbCircle
 10
345.7337836276
 20
60.5851680021
 30
0.0
 40
1.999999999999993
100
AcDbArc
 50
65.1576108945
 51
90.0
  0
ARC
  5
AB
330
1F
100
AcDbEntity
  8
0
  6
Continuous
 62
     7
370
    25
100
AcDbCircle
 10
345.7337836276
 20
154.5851680021
 30
0.0
 40
2.000000000000012
100
AcDbArc
 50
270.0
 51
294.8423891055
  0
LINE
  5
AC
330
1F
100
AcDbEntity
  8
0
  6
Continuous
 62
     7
370
    25
100
AcDbLine
 10
267.1742902321
 20
62.585166214
 30
0.0
 11
345.7337820154
 21
62.585166214
 31
0.0
  0
LINE
  5
AD
330
1F
100
AcDbEntity
  8
0
  6
Continuous
 62
     7
370
    25
100
AcDbLine
 10
345.7337820154
 20
152.5851697903
 30
0.0
 11
267.1742902321
 21
152.5851697903
 31
0.0
  0
LINE
  5
AE
330
1F
100
AcDbEntity
  8
0
  6
Continuous
 62
     7
370
    25
100
AcDbLine
 10
492.1742842716
 20
107.5851680021
 30
0.0
 11
492.1742842716
 21
177.5851683001
 31
0.0
  0
LINE
  5
AF
330
1F
100
AcDbEntity
  8
0
  6
Continuous
 62
     7
370
    25
100
AcDbLine
 10
492.1742842716
 20
37.5851677041
 30
0.0
 11
492.1742842716
 21
107.5851680021
 31
0.0
  0
LINE
  5
B0
330
1F
100
AcDbEntity
  8
0
  6
Continuous
 62
     7
370
    25
100
AcDbLine
 10
267.1742902321
 20
107.5851680021
 30
0.0
 11
267.1742902321
 21
152.5851697903
 31
0.0
  0
LINE
  5
B1
330
1F
100
AcDbEntity
  8
0
  6
Continuous
 62
     7
370
    25
100
AcDbLine
 10
267.1742902321
 20
62.585166214
 30
0.0
 11
267.1742902321
 21
107.5851680021
 31
0.0
  0
LINE
  5
B2
330
1F
100
AcDbEntity
  8
0
  6
Continuous
 62
     1
370
    25
100
AcDbLine
 10
399.7745455426
 20
107.5851680021
 30
0.0
 11
399.7745455426
 21
177.4001033287
 31
0.0
  0
LINE
  5
B3
330
1F
100
AcDbEntity
  8
0
  6
Continuous
 62
     1
370
    25
100
AcDbLine
 10
399.7745455426
 20
37.7702326755
 30
0.0
 11
399.7745455426
 21
107.5851680021
 31
0.0
  0
LINE
  5
B4
330
1F
100
AcDbEntity
  8
0
  6
Continuous
 62
     1
370
    25
100
AcDbLine
 10
400.61479222
 20
107.5851680021
 30
0.0
 11
400.61479222
 21
177.5851683001
 31
0.0
  0
LINE
  5
B5
330
1F
100
AcDbEntity
  8
0
  6
Continuous
 62
     1
370
    25
100
AcDbLine
 10
400.61479222
 20
37.5851677041
 30
0.0
 11
400.61479222
 21
107.5851680021
 31
0.0
  0
LINE
  5
B6
330
1F
100
AcDbEntity
  8
0
  6
Continuous
 62
     1
370
    25
100
AcDbLine
 10
346.5740324181
 20
107.5851680021
 30
0.0
 11
346.5740324181
 21
152.7702347617
 31
0.0
  0
LINE
  5
B7
330
1F
100
AcDbEntity
  8
0
  6
Continuous
 62
     1
370
    25
100
AcDbLine
 10
346.5740324181
 20
62.4001012425
 30
0.0
 11
346.5740324181
 21
107.5851680021
 31
0.0
  0
LINE
  5
B8
330
1F
100
AcDbEntity
  8
0
  6
Continuous
 62
     1
370
    25
100
AcDbLine
 10
345.7337820154
 20
107.5851680021
 30
0.0
 11
345.7337820154
 21
152.5851697903
 31
0.0
  0
LINE
  5
B9
330
1F
100
AcDbEntity
  8
0
  6
Continuous
 62
     1
370
    25
100
AcDbLine
 10
345.7337820154
 20
62.585166214
 30
0.0
 11
345.7337820154
 21
107.5851680021
 31
0.0
  0
ARC
  5
BA
330
1F
100
AcDbEntity
  8
0
  6
Continuous
 62
     7
370
    25
100
AcDbCircle
 10
207.395004093
 20
334.7687715035
 30
0.0
 40
2.000000000000012
100
AcDbArc
 50
335.1576108945
 51
0.0
  0
ARC
  5
BB
330
1F
100
AcDbEntity
  8
0
  6
Continuous
 62
     7
370
    25
100
AcDbCircle
 10
71.395004093
 20
334.7687715035
 30
0.0
 40
2.000000000000014
100
AcDbArc
 50
180.0
 51
204.8423891055
  0
LINE
  5
BC
330
1F
100
AcDbEntity
  8
0
  6
Continuous
 62
     7
370
    25
100
AcDbLine
 10
209.3950043911
 20
334.7687717459
 30
0.0
 11
209.3950043911
 21
426.3282637975
 31
0.0
  0
LINE
  5
BD
330
1F
100
AcDbEntity
  8
0
  6
Continuous
 62
     7
370
    25
100
AcDbLine
 10
69.395003795
 20
426.3282637975
 30
0.0
 11
69.395003795
 21
334.7687717459
 31
0.0
  0
LINE
  5
BE
330
1F
100
AcDbEntity
  8
0
  6
Continuous
 62
     7
370
    25
100
AcDbLine
 10
69.5800687665
 20
333.9285250685
 30
0.0
 11
94.2099373335
 21
280.7280119441
 31
0.0
  0
LINE
  5
BF
330
1F
100
AcDbEntity
  8
0
  6
Continuous
 62
     7
370
    25
100
AcDbLine
 10
184.5800708526
 20
280.7280119441
 30
0.0
 11
209.2099394196
 21
333.9285250685
 31
0.0
  0
ARC
  5
C0
330
1F
100
AcDbEntity
  8
0
  6
Continuous
 62
     7
370
    25
100
AcDbCircle
 10
186.395004093
 20
279.8877631535
 30
0.0
 40
1.999999999999972
100
AcDbArc
 50
155.1576108945
 51
180.0
  0
ARC
  5
C1
330
1F
100
AcDbEntity
  8
0
  6
Continuous
 62
     7
370
    25
100
AcDbCircle
 10
92.395004093
 20
279.8877631535
 30
0.0
 40
1.999999999999986
100
AcDbArc
 50
0.0
 51
24.8423891055
  0
LINE
  5
C2
330
1F
100
AcDbEntity
  8
0
  6
Continuous
 62
     7
370
    25
100
AcDbLine
 10
184.3950058812
 20
201.328269758
 30
0.0
 11
184.3950058812
 21
279.8877615414
 31
0.0
  0
LINE
  5
C3
330
1F
100
AcDbEntity
  8
0
  6
Continuous
 62
     7
370
    25
100
AcDbLine
 10
94.3950023049
 20
279.8877615414
 30
0.0
 11
94.3950023049
 21
201.328269758
 31
0.0
  0
LINE
  5
C4
330
1F
100
AcDbEntity
  8
0
  6
Continuous
 62
     7
370
    25
100
AcDbLine
 10
209.3950043911
 20
426.3282637975
 30
0.0
 11
69.395003795
 21
426.3282637975
 31
0.0
  0
LINE
  5
C5
330
1F
100
AcDbEntity
  8
0
  6
Continuous
 62
     7
370
    25
100
AcDbLine
 10
184.3950058812
 20
201.328269758
 30
0.0
 11
94.3950023049
 21
201.328269758
 31
0.0
  0
LINE
  5
C6
330
1F
100
AcDbEntity
  8
0
  6
Continuous
 62
     1
370
    25
100
AcDbLine
 10
209.2099394196
 20
333.9285250685
 30
0.0
 11
69.5800687665
 21
333.9285250685
 31
0.0
  0
LINE
  5
C7
330
1F
100
AcDbEntity
  8
0
  6
Continuous
 62
     1
370
    25
100
AcDbLine
 10
209.3950043911
 20
334.7687717459
 30
0.0
 11
69.395003795
 21
334.7687717459
 31
0.0
  0
LINE
  5
C8
330
1F
100
AcDbEntity
  8
0
  6
Continuous
 62
     1
370
    25
100
AcDbLine
 10
184.5800708526
 20
280.7280119441
 30
0.0
 11
94.2099373335
 21
280.7280119441
 31
0.0
  0
LINE
  5
C9
330
1F
100
AcDbEntity
  8
0
  6
Continuous
 62
     1
370
    25
100
AcDbLine
 10
184.3950058812
 20
279.8877615414
 30
0.0
 11
94.3950023049
 21
279.8877615414
 31
0.0
  0
ARC
  5
CA
330
1F
100
AcDbEntity
  8
0
  6
Continuous
 62
     7
370
    25
100
AcDbCircle
 10
71.395004093
 20
-118.04216753
 30
0.0
 40
2.000000000000017
100
AcDbArc
 50
155.1576108945
 51
180.0
  0
ARC
  5
CB
330
1F
100
AcDbEntity
  8
0
  6
Continuous
 62
     7
370
    25
100
AcDbCircle
 10
207.395004093
 20
-118.04216753
 30
0.0
 40
2.00000000000003
100
AcDbArc
 50
0.0
 51
24.8423891055
  0
LINE
  5
CC
330
1F
100
AcDbEntity
  8
0
  6
Continuous
 62
     7
370
    25
100
AcDbLine
 10
69.395003795
 20
-118.0421677724
 30
0.0
 11
69.395003795
 21
-209.601659824
 31
0.0
  0
LINE
  5
CD
330
1F
100
AcDbEntity
  8
0
  6
Continuous
 62
     7
370
    25
100
AcDbLine
 10
209.3950043911
 20
-209.601659824
 30
0.0
 11
209.3950043911
 21
-118.0421677724
 31
0.0
  0
LINE
  5
CE
330
1F
100
AcDbEntity
  8
0
  6
Continuous
 62
     7
370
    25
100
AcDbLine
 10
209.2099394196
 20
-117.201921095
 30
0.0
 11
184.5800708526
 21
-64.0014079705
 31
0.0
  0
LINE
  5
CF
330
1F
100
AcDbEntity
  8
0
  6
Continuous
 62
     7
370
    25
100
AcDbLine
 10
94.2099373335
 20
-64.0014079705
 30
0.0
 11
69.5800687665
 21
-117.201921095
 31
0.0
  0
ARC
  5
D0
330
1F
100
AcDbEntity
  8
0
  6
Continuous
 62
     7
370
    25
100
AcDbCircle
 10
92.395004093
 20
-63.16115918
 30
0.0
 40
2.000000000000001
100
AcDbArc
 50
335.1576108945
 51
0.0
  0
ARC
  5
D1
330
1F
100
AcDbEntity
  8
0
  6
Continuous
 62
     7
370
    25
100
AcDbCircle
 10
186.395004093
 20
-63.16115918
 30
0.0
 40
1.999999999999975
100
AcDbArc
 50
180.0
 51
204.8423891055
  0
LINE
  5
D2
330
1F
100
AcDbEntity
  8
0
  6
Continuous
 62
     7
370
    25
100
AcDbLine
 10
94.3950023049
 20
15.3983342155
 30
0.0
 11
94.3950023049
 21
-63.1611575678
 31
0.0
  0
LINE
  5
D3
330
1F
100
AcDbEntity
  8
0
  6
Continuous
 62
     7
370
    25
100
AcDbLine
 10
184.3950058812
 20
-63.1611575678
 30
0.0
 11
184.3950058812
 21
15.3983342155
 31
0.0
  0
LINE
  5
D4
330
1F
100
AcDbEntity
  8
0
  6
Continuous
 62
     7
370
    25
100
AcDbLine
 10
69.395003795
 20
-209.601659824
 30
0.0
 11
209.3950043911
 21
-209.601659824
 31
0.0
  0
LINE
  5
D5
330
1F
100
AcDbEntity
  8
0
  6
Continuous
 62
     7
370
    25
100
AcDbLine
 10
94.3950023049
 20
15.3983342155
 30
0.0
 11
184.3950058812
 21
15.3983342155
 31
0.0
  0
LINE
  5
D6
330
1F
100
AcDbEntity
  8
0
  6
Continuous
 62
     1
370
    25
100
AcDbLine
 10
69.5800687665
 20
-117.201921095
 30
0.0
 11
209.2099394196
 21
-117.201921095
 31
0.0
  0
LINE
  5
D7
330
1F
100
AcDbEntity
  8
0
  6
Continuous
 62
     1
370
    25
100
AcDbLine
 10
69.395003795
 20
-118.0421677724
 30
0.0
 11
209.3950043911
 21
-118.0421677724
 31
0.0
  0
LINE
  5
D8
330
1F
100
AcDbEntity
  8
0
  6
Continuous
 62
     1
370
    25
100
AcDbLine
 10
94.2099373335
 20
-64.0014079705
 30
0.0
 11
184.5800708526
 21
-64.0014079705
 31
0.0
  0
LINE
  5
D9
330
1F
100
AcDbEntity
  8
0
  6
Continuous
 62
     1
370
    25
100
AcDbLine
 10
94.3950023049
 20
-63.1611575678
 30
0.0
 11
184.3950058812
 21
-63.1611575678
 31
0.0
  0
LINE
  5
DA
330
1F
100
AcDbEntity
  8
0
  6
Continuous
 62
     7
370
    25
100
AcDbLine
 10
405.6290935504
 20
-30.5393658588
 30
0.0
 11
340.8867558387
 21
6.8355901539
 31
0.0
  0
LINE
  5
DB
330
1F
100
AcDbEntity
  8
0
  6
Continuous
 62
     7
370
    25
100
AcDbLine
 10
270.8924466505
 20
-114.4112500437
 30
0.0
 11
335.6347843622
 21
-151.7862060564
 31
0.0
  0
SPLINE
  5
DC
330
1F
100
AcDbEntity
  8
0
  6
Continuous
 62
     7
370
    25
100
AcDbSpline
210
0.0
220
0.0
230
1.0
 70
     8
 71
     3
 72
    12
 73
     8
 74
     0
 42
0.000000001
 43
0.00000001
 40
0.0
 40
0.0
 40
0.0
 40
0.0
 40
0.0201571891712682
 40
0.3092153853520314
 40
0.5971373808148527
 40
0.8840022386934893
 40
1.0
 40
1.0
 40
1.0
 40
1.0
 10
413.4377587120239
 20
-37.56906407996584
 30
0.0
 10
413.4076384728821
 20
-37.52542811438995
 30
0.0
 10
412.9455878727719
 20
-36.85604351934009
 30
0.0
 10
411.9428065081263
 20
-35.68971337963627
 30
0.0
 10
410.4199305738412
 20
-34.10058610577682
 30
0.0
 10
409.1222191774547
 20
-32.93243907072328
 30
0.0
 10
408.3039528773104
 20
-32.34403398635916
 30
0.0
 10
408.0683463592342
 20
-32.17461227961041
 30
0.0
  0
SPLINE
  5
DD
330
1F
100
AcDbEntity
  8
0
  6
Continuous
 62
     7
370
    25
100
AcDbSpline
210
0.0
220
0.0
230
1.0
 70
     8
 71
     3
 72
    12
 73
     8
 74
     0
 42
0.000000001
 43
0.00000001
 40
0.0
 40
0.0
 40
0.0
 40
0.0
 40
0.1946916376775799
 40
0.454049461486955
 40
0.7139901869771608
 40
0.9747344376201583
 40
1.0
 40
1.0
 40
1.0
 40
1.0
 10
338.3968649084842
 20
-153.140039569873
 30
0.0
 10
338.8929685554601
 20
-153.3458221523636
 30
0.0
 10
340.0499550415678
 20
-153.8257373242621
 30
0.0
 10
341.9605724938164
 20
-154.3894943780914
 30
0.0
 10
344.1138540865825
 20
-154.8398720432001
 30
0.0
 10
345.652468202403
 20
-155.0789613240142
 30
0.0
 10
346.4856884995763
 20
-155.1210661061898
 30
0.0
 10
346.5592935943522
 20
-155.1247855624885
 30
0.0
  0
LINE
  5
DE
330
1F
100
AcDbEntity
  8
0
  6
Continuous
 62
     7
370
    25
100
AcDbLine
 10
349.6743961438
 20
-155.2347385122
 30
0.0
 11
394.8960153042
 21
-154.4685968126
 31
0.0
  0
LINE
  5
DF
330
1F
100
AcDbEntity
  8
0
  6
Continuous
 62
     7
370
    25
100
AcDbLine
 10
437.58741822
 20
-80.516904375
 30
0.0
 11
415.6363964798
 21
-40.9728210398
 31
0.0
  0
LINE
  5
E0
330
1F
100
AcDbEntity
  8
0
  6
Continuous
 62
     7
370
    25
100
AcDbLine
 10
487.4867949245
 20
-106.6615409139
 30
0.0
 11
435.4131834775
 21
-76.6000849016
 31
0.0
  0
LINE
  5
E1
330
1F
100
AcDbEntity
  8
0
  6
Continuous
 62
     7
370
    25
100
AcDbLine
 10
390.4168392224
 20
-154.5444832576
 30
0.0
 11
442.4904506693
 21
-184.6059392699
 31
0.0
  0
LWPOLYLINE
  5
E2
330
1F
100
AcDbEntity
  8
0
  6
Continuous
 62
     7
370
    25
100
AcDbPolyline
 90
      117
 70
   128
 43
0.0
 10
256.3921263508
 20
-82.3621139804
 10
256.464719029
 20
-79.2257431194
 10
256.682281061
 20
-76.0147597367
 10
257.0441802441
 20
-72.7385788739
 10
257.5493523704
 20
-69.4068117315
 10
258.1963117634
 20
-66.02923316
 10
258.983161815
 20
-62.6157502922
 10
259.9076002535
 20
-59.176369843
 10
260.9669086072
 20
-55.7211874628
 10
262.1579864487
 20
-52.2603322264
 10
263.4773355894
 20
-48.803957506
 10
264.9210864219
 20
-45.3622014298
 10
266.485005822
 20
-41.9451579851
 10
268.1645050516
 20
-38.5628526839
 10
269.9546581977
 20
-35.2252045421
 10
271.8502153437
 20
-31.9420032663
 10
273.8456157396
 20
-28.7228803577
 10
275.9350062419
 20
-25.5772771743
 10
278.1122597524
 20
-22.514419077
 10
280.3709883894
 20
-19.5432926168
 10
282.7045671952
 20
-16.672610556
 10
285.1061512582
 20
-13.9107928578
 10
287.5686967863
 20
-11.2659453957
 10
290.0849821804
 20
-8.7458173694
 10
292.6476238395
 20
-6.3578104319
 10
295.2491071123
 20
-4.1089212774
 10
297.8818007849
 20
-2.0057454448
 10
300.5379827644
 20
-0.0544564078
 10
303.2098619755
 20
1.7392192334
 10
305.8896012446
 20
3.3700271304
 10
308.5693405137
 20
4.8331803366
 10
311.2412197248
 20
6.1243907689
 10
313.8974017044
 20
7.2398641677
 10
316.530095377
 20
8.1763317489
 10
319.1315786497
 20
8.9310512474
 10
321.6942203089
 20
9.5018073905
 10
324.210505703
 20
9.8869206405
 10
326.673051231
 20
10.085267726
 10
329.074635294
 20
10.096259966
 10
331.4082140998
 20
9.9198706447
 10
333.6669427369
 20
9.5566167588
 10
335.8441962474
 20
9.0075620569
 10
337.9335867497
 20
8.2743177989
 10
339.9289871456
 20
7.3590351488
 10
341.8245442915
 20
6.2643975688
 10
343.6146974377
 20
4.9936162551
 10
345.2941966673
 20
3.5504194894
 10
346.8581160674
 20
1.9390389493
 10
348.3018668998
 20
0.1642021029
 10
349.6212160406
 20
-1.7688845237
 10
350.812293882
 20
-3.8545505561
 10
351.8716022358
 20
-6.0866815444
 10
352.7960406743
 20
-8.4587280913
 10
353.5828907259
 20
-10.9637332271
 10
354.2298501189
 20
-13.594348383
 10
354.7350222451
 20
-16.3428562035
 10
355.0969214282
 20
-19.2011971635
 10
355.3144834602
 20
-22.1609887708
 10
355.3870761384
 20
-25.2135459095
 10
355.3144834602
 20
-28.3499167704
 10
355.0969214282
 20
-31.5609001531
 10
354.7350222451
 20
-34.8370810159
 10
354.2298501189
 20
-38.1688481584
 10
353.5828907259
 20
-41.5464267298
 10
352.7960406743
 20
-44.9599095977
 10
351.8716022358
 20
-48.3992900469
 10
350.812293882
 20
-51.8544724271
 10
349.6212160406
 20
-55.3153276635
 10
348.3018668998
 20
-58.7717023839
 10
346.8581160674
 20
-62.2134584601
 10
345.2941966673
 20
-65.6305019048
 10
343.6146974377
 20
-69.0128072059
 10
341.8245442915
 20
-72.3504553477
 10
339.9289871456
 20
-75.6336566236
 10
337.9335867497
 20
-78.8527795322
 10
335.8441962474
 20
-81.9983827156
 10
333.6669427369
 20
-85.0612408129
 10
331.4082140998
 20
-88.032367273
 10
329.074635294
 20
-90.9030493339
 10
326.673051231
 20
-93.6648670321
 10
324.210505703
 20
-96.3097144941
 10
321.6942203089
 20
-98.8298425204
 10
319.1315786497
 20
-101.2178494579
 10
316.530095377
 20
-103.4667386125
 10
313.8974017044
 20
-105.5699144451
 10
311.2412197248
 20
-107.521203482
 10
308.5693405137
 20
-109.3148791232
 10
305.8896012446
 20
-110.9456870203
 10
303.2098619755
 20
-112.4088402265
 10
300.5379827644
 20
-113.7000506588
 10
297.8818007849
 20
-114.8155240576
 10
295.2491071123
 20
-115.7519916388
 10
292.6476238395
 20
-116.5067111373
 10
290.0849821804
 20
-117.0774672804
 10
287.5686967863
 20
-117.4625805303
 10
285.1061512582
 20
-117.6609276159
 10
282.7045671952
 20
-117.6719198559
 10
280.3709883894
 20
-117.4955305346
 10
278.1122597524
 20
-117.1322766486
 10
275.9350062419
 20
-116.5832219468
 10
273.8456157396
 20
-115.8499776888
 10
271.8502153437
 20
-114.9346950386
 10
269.9546581977
 20
-113.8400574587
 10
268.1645050516
 20
-112.569276145
 10
266.485005822
 20
-111.1260793792
 10
264.9210864219
 20
-109.5146988392
 10
263.4773355894
 20
-107.7398619928
 10
262.1579864487
 20
-105.8067753662
 10
260.9669086072
 20
-103.7211093338
 10
259.9076002535
 20
-101.4889783455
 10
258.983161815
 20
-99.1169317986
 10
258.1963117634
 20
-96.6119266627
 10
257.5493523704
 20
-93.9813115069
 10
257.0441802441
 20
-91.2328036864
 10
256.682281061
 20
-88.3744627264
 10
256.464719029
 20
-85.4146711191
 10
256.3921263508
 20
-82.3621139804
  0
LWPOLYLINE
  5
E3
330
1F
100
AcDbEntity
  8
0
  6
Continuous
 62
     7
370
    25
100
AcDbPolyline
 90
      106
 70
   128
 43
0.0
 10
265.3723817048
 20
-77.1779229131
 10
265.4449032602
 20
-74.3379529137
 10
265.6622045086
 20
-71.4244201938
 10
266.0235110016
 20
-68.4477513874
 10
266.5275267237
 20
-65.4186050208
 10
267.1724498971
 20
-62.3478228443
 10
267.9559677135
 20
-59.2464001739
 10
268.8752800416
 20
-56.1254341818
 10
269.9270941588
 20
-52.9961018427
 10
271.1076431907
 20
-49.8696044214
 10
272.4127045497
 20
-46.7571309727
 10
273.83760257
 20
-43.669826402
 10
275.377240117
 20
-40.6187427987
 10
277.0261038561
 20
-37.6148014136
 10
278.7782905943
 20
-34.6687531169
 10
280.6275283538
 20
-31.7911479825
 10
282.5672000792
 20
-28.9922850987
 10
284.590356809
 20
-26.2821836726
 10
286.6897611391
 20
-23.6705427293
 10
288.8578951252
 20
-21.1667182987
 10
291.086998479
 20
-18.7796679056
 10
293.3690922752
 20
-16.5179338413
 10
295.6960052935
 20
-14.3896188317
 10
298.0594089216
 20
-12.4023415532
 10
300.4508428381
 20
-10.5632096389
 10
302.8617456351
 20
-8.8788141679
 10
305.2834876631
 20
-7.3551802859
 10
307.7073994307
 20
-5.9977599359
 10
310.1248037084
 20
-4.8114194089
 10
312.527047633
 20
-3.8003995173
 10
314.9055306132
 20
-2.9683238203
 10
317.2517396441
 20
-2.3181660695
 10
319.5572736735
 20
-1.8522604781
 10
321.8138817972
 20
-1.572267503
 10
324.0134863083
 20
-1.4791939996
 10
326.1482110145
 20
-1.5733707906
 10
328.2104141653
 20
-1.8544610345
 10
330.1927147939
 20
-2.3214632694
 10
332.0880190587
 20
-2.9726962067
 10
333.8895386831
 20
-3.8058367559
 10
335.5908251992
 20
-4.8179002554
 10
337.1857883874
 20
-6.0052632885
 10
338.6687199839
 20
-7.3636743321
 10
340.0343094858
 20
-8.888275051
 10
341.277673127
 20
-10.5736003005
 10
342.3943538783
 20
-12.4136237544
 10
343.3803583258
 20
-14.4017563876
 10
344.2321540367
 20
-16.5308799359
 10
344.9466959013
 20
-18.7933735151
 10
345.5214208643
 20
-21.1811394756
 10
345.9542769011
 20
-23.6856269802
 10
346.2437098465
 20
-26.2978738279
 10
346.3886844687
 20
-29.0085283193
 10
346.3886844687
 20
-31.8078853786
 10
346.2437098465
 20
-34.6859240059
 10
345.9542769011
 20
-37.6323430193
 10
345.5214208643
 20
-40.6365954662
 10
344.9466959013
 20
-43.6879247447
 10
344.2321540367
 20
-46.7754108002
 10
343.3803583258
 20
-49.8879967428
 10
342.3943538783
 20
-53.0145458791
 10
341.277673127
 20
-56.1438614852
 10
340.0343094858
 20
-59.2647438381
 10
338.6687199839
 20
-62.3660206353
 10
337.1857883874
 20
-65.436588056
 10
335.5908251992
 20
-68.4654563887
 10
333.8895386831
 20
-71.4417834892
 10
332.0880190587
 20
-74.3549143228
 10
330.1927147939
 20
-77.1944189857
 10
328.2104141653
 20
-79.9501368096
 10
326.1482110145
 20
-82.612196131
 10
324.0134863083
 20
-85.1710736052
 10
321.8138817972
 20
-87.6176094132
 10
319.5572736735
 20
-89.9430407197
 10
317.2517396441
 20
-92.1390480583
 10
314.9055306132
 20
-94.1977655946
 10
312.527047633
 20
-96.1118278933
 10
310.1248037084
 20
-97.8743797999
 10
307.7073994307
 20
-99.4791148422
 10
305.2834876631
 20
-100.9202834494
 10
302.8617456351
 20
-102.1927333967
 10
300.4508428381
 20
-103.2919070452
 10
298.0594089216
 20
-104.2138659593
 10
295.6960052935
 20
-104.9553164272
 10
293.3690922752
 20
-105.5135980027
 10
291.086998479
 20
-105.8867133512
 10
288.8578951252
 20
-106.0733309083
 10
286.6897611391
 20
-106.0727806944
 10
284.590356809
 20
-105.885060396
 10
282.5672000792
 20
-105.5108460094
 10
280.6275283538
 20
-104.9514804308
 10
278.7782905943
 20
-104.2089597668
 10
277.0261038561
 20
-103.2859432167
 10
275.377240117
 20
-102.1857393825
 10
273.83760257
 20
-100.9122834531
 10
272.4127045497
 20
-99.4701311186
 10
271.1076431907
 20
-97.8644494421
 10
269.9270941588
 20
-96.10098492
 10
268.8752800416
 20
-94.1860513115
 10
267.9559677135
 20
-92.1265007405
 10
267.1724498971
 20
-89.9297084853
 10
266.5275267237
 20
-87.6035387553
 10
266.0235110016
 20
-85.1563165548
 10
265.6622045086
 20
-82.5968033458
 10
265.4449032602
 20
-79.9341613069
 10
265.3723817048
 20
-77.1779229131
  0
LWPOLYLINE
  5
E4
330
1F
100
AcDbEntity
  8
0
  6
Continuous
 62
     7
370
    25
100
AcDbPolyline
 90
        3
 70
   128
 43
0.0
 10
405.6290935504
 20
-30.5393658588
 10
406.5668820032
 20
-31.1105584438
 10
407.9488903368
 20
-32.0691436106
  0
LWPOLYLINE
  5
E5
330
1F
100
AcDbEntity
  8
0
  6
Continuous
 62
     7
370
    25
100
AcDbPolyline
 90
        3
 70
   128
 43
0.0
 10
338.241261378
 20
-153.0818292028
 10
336.5925530554
 20
-152.3096510513
 10
335.6347843622
 20
-151.7862060564
  0
ARC
  5
E6
330
1F
100
AcDbEntity
  8
0
  6
Continuous
 62
     7
370
    25
100
AcDbCircle
 10
388.1030868498
 20
-56.3862637656
 30
0.0
 40
31.55347263472837
100
AcDbArc
 50
20.149738561
 51
36.4337205343
  0
ARC
  5
E7
330
1F
100
AcDbEntity
  8
0
  6
Continuous
 62
     7
370
    25
100
AcDbCircle
 10
349.2081315488
 20
-122.9935440855
 30
0.0
 40
32.24210257573195
100
AcDbArc
 50
265.5064540456
 51
280.0431085276
  0
LINE
  5
E8
330
1F
100
AcDbEntity
  8
0
  6
Continuous
 62
     7
370
    25
100
AcDbLine
 10
395.5375443392
 20
-154.4476218452
 30
0.0
 11
394.8960153042
 21
-154.4685968126
 31
0.0
  0
LWPOLYLINE
  5
E9
330
1F
100
AcDbEntity
  8
0
  6
Continuous
 62
     7
370
    25
100
AcDbPolyline
 90
       49
 70
   128
 43
0.0
 10
487.4867949245
 20
-106.6615409139
 10
487.6778334179
 20
-106.7737164696
 10
489.132157841
 20
-107.7617246476
 10
490.4763209387
 20
-108.922534639
 10
491.7041903448
 20
-110.2508500047
 10
492.8101605282
 20
-111.7406093297
 10
493.7891896723
 20
-113.3850151234
 10
494.6368075768
 20
-115.1765642395
 10
495.3491472686
 20
-117.1070828601
 10
495.922960806
 20
-119.1677614782
 10
496.3556245477
 20
-121.3491997658
 10
496.6451707628
 20
-123.6414411779
 10
496.7902744597
 20
-126.0340289403
 10
496.7902744597
 20
-128.5160457856
 10
496.6451707628
 20
-131.0761667103
 10
496.3556245477
 20
-133.7027110666
 10
495.922960806
 20
-136.3836922773
 10
495.3491472686
 20
-139.1068819038
 10
494.6368075768
 20
-141.8598504261
 10
493.7891896723
 20
-144.6300383439
 10
492.8101605282
 20
-147.4048071269
 10
491.7041903448
 20
-150.1714924455
 10
490.4763209387
 20
-152.9174756516
 10
489.132157841
 20
-155.6302233217
 10
487.6778334179
 20
-158.2973587374
 10
486.119983164
 20
-160.9067151148
 10
484.4657154087
 20
-163.4463835118
 10
482.7225783891
 20
-165.9047759426
 10
480.8985260058
 20
-168.2706786073
 10
479.0018783102
 20
-170.533292953
 10
477.0412925282
 20
-172.6822949874
 10
475.02571367
 20
-174.7078820425
 10
472.9643376512
 20
-176.6008092734
 10
470.8665698042
 20
-178.3524409854
 10
468.7419824029
 20
-179.954787323
 10
466.6002695517
 20
-181.4005303106
 10
464.4512028162
 20
-182.6830829277
 10
462.3045883359
 20
-183.7965834483
 10
460.1702205609
 20
-184.7359586503
 10
458.0578376356
 20
-185.4969161118
 10
455.9770786763
 20
-186.0759901669
 10
453.9374372603
 20
-186.470532254
 10
451.9482192802
 20
-186.6787504548
 10
450.0185034307
 20
-186.6996836357
 10
448.1570905004
 20
-186.5332459298
 10
446.3724770306
 20
-186.1801932739
 10
444.6728052656
 20
-185.6421370925
 10
443.0658302256
 20
-184.9215298456
 10
442.4904506693
 20
-184.6059392699
  0
LWPOLYLINE
  5
EA
330
1F
100
AcDbEntity
  8
0
  6
Continuous
 62
     1
370
    25
100
AcDbPolyline
 90
       58
 70
   128
 43
0.0
 10
407.9488903368
 20
-32.0691436106
 10
408.3570351494
 20
-32.3813397576
 10
410.036534379
 20
-33.8245365233
 10
411.6004537791
 20
-35.4359170633
 10
413.0442046115
 20
-37.2107539097
 10
414.3635537522
 20
-39.1438405363
 10
415.5546315937
 20
-41.2295065687
 10
416.6139399474
 20
-43.461637557
 10
417.538378386
 20
-45.8336841039
 10
418.3252284375
 20
-48.3386892398
 10
418.9721878305
 20
-50.9693043956
 10
419.4773599568
 20
-53.7178122161
 10
419.8392591399
 20
-56.5761531761
 10
420.0568211719
 20
-59.5359447834
 10
420.1294138501
 20
-62.5885019221
 10
420.0568211719
 20
-65.7248727831
 10
419.8392591399
 20
-68.9358561658
 10
419.4773599568
 20
-72.2120370286
 10
418.9721878305
 20
-75.543804171
 10
418.3252284375
 20
-78.9213827425
 10
417.538378386
 20
-82.3348656103
 10
416.6139399474
 20
-85.7742460595
 10
415.5546315937
 20
-89.2294284397
 10
414.3635537522
 20
-92.6902836761
 10
413.0442046115
 20
-96.1466583965
 10
411.6004537791
 20
-99.5884144727
 10
410.036534379
 20
-103.0054579174
 10
408.3570351494
 20
-106.3877632186
 10
406.5668820032
 20
-109.7254113604
 10
404.6713248572
 20
-113.0086126362
 10
402.6759244613
 20
-116.2277355448
 10
400.5865339591
 20
-119.3733387282
 10
398.4092804486
 20
-122.4361968255
 10
396.1505518115
 20
-125.4073232857
 10
393.8169730057
 20
-128.2780053465
 10
391.4153889427
 20
-131.0398230447
 10
388.9528434146
 20
-133.6846705068
 10
386.4365580205
 20
-136.2047985331
 10
383.8739163614
 20
-138.5928054706
 10
381.2724330887
 20
-140.8416946251
 10
378.6397394161
 20
-142.9448704577
 10
375.9835574365
 20
-144.8961594947
 10
373.3116782254
 20
-146.6898351359
 10
370.6319389563
 20
-148.3206430329
 10
367.9521996872
 20
-149.7837962391
 10
365.2803204761
 20
-151.0750066714
 10
362.6241384965
 20
-152.1904800702
 10
359.9914448239
 20
-153.1269476514
 10
357.3899615512
 20
-153.8816671499
 10
354.8273198921
 20
-154.452423293
 10
352.311034498
 20
-154.837536543
 10
349.8484889699
 20
-155.0358836285
 10
347.4469049069
 20
-155.0468758685
 10
345.1133261011
 20
-154.8704865472
 10
342.854597464
 20
-154.5072326613
 10
340.6773439535
 20
-153.9581779594
 10
338.5879534513
 20
-153.2249337014
 10
338.241261378
 20
-153.0818292028
  0
LWPOLYLINE
  5
EB
330
1F
100
AcDbEntity
  8
0
  6
Continuous
 62
     1
370
    25
100
AcDbPolyline
 90
       44
 70
   128
 43
0.0
 10
417.7253470743
 20
-45.5168877713
 10
418.008510676
 20
-46.2965165627
 10
418.7932849953
 20
-48.794897872
 10
419.4385321726
 20
-51.4185591945
 10
419.9423661364
 20
-54.1598021874
 10
420.3033064787
 20
-57.0105870982
 10
420.5202942599
 20
-59.9625529181
 10
420.5926972773
 20
-63.0070382958
 10
420.5202942599
 20
-66.1351184179
 10
420.3033064787
 20
-69.3376129974
 10
419.9423661364
 20
-72.6051307569
 10
419.4385321726
 20
-75.9280880623
 10
418.7932849953
 20
-79.2967359182
 10
418.008510676
 20
-82.7011983701
 10
417.0865167547
 20
-86.1314839124
 10
416.030005898
 20
-89.5775333958
 10
414.8420811677
 20
-93.0292390386
 10
413.5262196787
 20
-96.4764763641
 10
412.0862857702
 20
-99.9091330995
 10
410.5265020296
 20
-103.3171395913
 10
408.85144139
 20
-106.6905037863
 10
407.0660218617
 20
-110.0193264399
 10
405.1754749224
 20
-113.2938497833
 10
403.1853507851
 20
-116.5044605655
 10
401.1014841542
 20
-119.6417493659
 10
398.9299889569
 20
-122.6965075528
 10
396.6772320014
 20
-125.6597789916
 10
394.3498224405
 20
-128.5228722117
 10
391.9545854295
 20
-131.2773847385
 10
389.4985502725
 20
-133.915243397
 10
386.9889188121
 20
-136.4287073509
 10
384.4330509417
 20
-138.8104068843
 10
381.8384455078
 20
-141.0533483435
 10
379.2127119921
 20
-143.1509609024
 10
376.5635527312
 20
-145.0970885763
 10
373.8987375624
 20
-146.886023109
 10
371.2260830798
 20
-148.5125220326
 10
368.5534285971
 20
-149.9718042919
 10
365.8886134283
 20
-151.2595998631
 10
363.2394541674
 20
-152.3721263666
 10
360.6137206517
 20
-153.3061211954
 10
358.0191152178
 20
-154.0588474056
 10
355.4632473475
 20
-154.6280901026
 10
354.8308022754
 20
-154.7415952447
  0
LWPOLYLINE
  5
EC
330
1F
100
AcDbEntity
  8
0
  6
Continuous
 62
     1
370
    25
100
AcDbPolyline
 90
       39
 70
   128
 43
0.0
 10
437.58741822
 20
-80.516904375
 10
437.7635393632
 20
-80.8410925432
 10
438.6146422853
 20
-82.6400093509
 10
439.3299111831
 20
-84.5784682393
 10
439.906084944
 20
-86.6476209169
 10
440.3405293901
 20
-88.8380297919
 10
440.6312636195
 20
-91.1396999146
 10
440.7769652748
 20
-93.542126697
 10
440.7769652748
 20
-96.0343510456
 10
440.6312636195
 20
-98.6050013785
 10
440.3405293901
 20
-101.2423460975
 10
439.906084944
 20
-103.9343538531
 10
439.3299111831
 20
-106.668742595
 10
438.6146422853
 20
-109.4330333745
 10
437.7635393632
 20
-112.2146126994
 10
436.7804851951
 20
-115.0007926109
 10
435.6699631521
 20
-117.77885859
 10
434.4370466609
 20
-120.5361326755
 10
433.0873544235
 20
-123.2600373383
 10
431.6270477821
 20
-125.9381426303
 10
430.0627925243
 20
-128.5582292987
 10
428.4017206871
 20
-131.1083412546
 10
426.651414752
 20
-133.5768464087
 10
424.8198602297
 20
-135.9524762107
 10
422.91541405
 20
-138.224395609
 10
420.9467650491
 20
-140.3822380284
 10
418.9228957741
 20
-142.4161547964
 10
416.8530423118
 20
-144.3168657101
 10
414.7466475318
 20
-146.07570428
 10
412.6133225619
 20
-147.6846369272
 10
410.4628013486
 20
-149.1363287598
 10
408.3048965343
 20
-150.424153835
 10
406.1494538533
 20
-151.5422336526
 10
404.0063081738
 20
-152.4854716578
 10
401.885238388
 20
-153.249561031
 10
399.7959216427
 20
-153.8310141517
 10
397.7478923454
 20
-154.2271801807
 10
395.7504939255
 20
-154.4362516137
 10
395.5375443392
 20
-154.4476218452
  0
LWPOLYLINE
  5
ED
330
1F
100
AcDbEntity
  8
0
  6
Continuous
 62
     1
370
    25
100
AcDbPolyline
 90
       41
 70
   128
 43
0.0
 10
436.612651176
 20
-78.7608868899
 10
437.2602111616
 20
-79.6723061534
 10
438.2392403057
 20
-81.3167119471
 10
439.0868582102
 20
-83.1082610632
 10
439.799197902
 20
-85.0387796838
 10
440.3730114394
 20
-87.0994583019
 10
440.8056751811
 20
-89.2808965895
 10
441.0952213962
 20
-91.5731380016
 10
441.2403250931
 20
-93.965725764
 10
441.2403250931
 20
-96.4477426093
 10
441.0952213962
 20
-99.007863534
 10
440.8056751811
 20
-101.6344078903
 10
440.3730114394
 20
-104.315389101
 10
439.799197902
 20
-107.0385787275
 10
439.0868582102
 20
-109.7915472498
 10
438.2392403057
 20
-112.5617351676
 10
437.2602111616
 20
-115.3365039506
 10
436.1542409782
 20
-118.1031892692
 10
434.9263715722
 20
-120.8491724753
 10
433.5822084744
 20
-123.5619201454
 10
432.1278840513
 20
-126.229055561
 10
430.5700337974
 20
-128.8384119385
 10
428.9157660421
 20
-131.3780803355
 10
427.1726290225
 20
-133.8364727663
 10
425.3485766392
 20
-136.202375431
 10
423.4519289436
 20
-138.4649897767
 10
421.4913431616
 20
-140.6139918111
 10
419.4757643034
 20
-142.6395788662
 10
417.4143882846
 20
-144.5325060971
 10
415.3166204376
 20
-146.2841378091
 10
413.1920330363
 20
-147.8864841466
 10
411.0503201851
 20
-149.3322271343
 10
408.9012534496
 20
-150.6147797514
 10
406.7546389693
 20
-151.728280272
 10
404.6202711943
 20
-152.667655474
 10
402.507888269
 20
-153.4286129355
 10
400.4271293097
 20
-154.0076869906
 10
398.3874878937
 20
-154.4022290777
 10
396.3982699136
 20
-154.6104472785
 10
394.4685540641
 20
-154.6313804594
 10
392.8878799746
 20
-154.5026188534
  0
ENDSEC
  0
SECTION
  2
OBJECTS
  0
DICTIONARY
  5
C
330
0
100
AcDbDictionary
281
     1
  3
ACAD_GROUP
350
D
  3
ACAD_LAYOUT
350
1A
  3
ACAD_MLINESTYLE
350
17
  3
ACAD_PLOTSETTINGS
350
19
  3
ACAD_PLOTSTYLENAME
350
E
  3
ACAD_SCALELIST
350
47
  0
DICTIONARY
  5
D
102
{ACAD_REACTORS
330
C
102
}
330
C
100
AcDbDictionary
281
     1
  0
DICTIONARY
  5
1A
102
{ACAD_REACTORS
330
C
102
}
330
C
100
AcDbDictionary
281
     1
  3
Layout1
350
1E
  3
Layout2
350
26
  3
Model
350
22
  0
DICTIONARY
  5
17
102
{ACAD_REACTORS
330
C
102
}
330
C
100
AcDbDictionary
281
     1
  3
Standard
350
18
  0
DICTIONARY
  5
19
102
{ACAD_REACTORS
330
C
102
}
330
C
100
AcDbDictionary
281
     1
  0
ACDBDICTIONARYWDFLT
  5
E
102
{ACAD_REACTORS
330
C
102
}
330
C
100
AcDbDictionary
281
     1
  3
Normal
350
F
100
AcDbDictionaryWithDefault
340
F
  0
DICTIONARY
  5
47
102
{ACAD_REACTORS
330
C
102
}
330
C
100
AcDbDictionary
281
     1
  3
A0
350
48
  3
A1
350
49
  3
A2
350
4A
  3
A3
350
4B
  3
A4
350
4C
  3
A5
350
4D
  3
A6
350
4E
  3
A7
350
4F
  3
A8
350
50
  3
A9
350
51
  3
B0
350
52
  3
B1
350
53
  3
B2
350
54
  3
B3
350
55
  3
B4
350
56
  3
B5
350
57
  3
B6
350
58
  3
B7
350
59
  3
B8
350
5A
  3
B9
350
5B
  3
C0
350
5C
  3
C1
350
5D
  3
C2
350
5E
  3
C3
350
5F
  3
C4
350
60
  3
C5
350
61
  3
C6
350
62
  3
C7
350
63
  3
C8
350
64
  3
C9
350
65
  3
D0
350
66
  3
D1
350
67
  3
D2
350
68
  0
LAYOUT
  5
1E
102
{ACAD_REACTORS
330
1A
102
}
330
1A
100
AcDbPlotSettings
  1

  2
none_device
  4

  6

 40
0.0
 41
0.0
 42
0.0
 43
0.0
 44
0.0
 45
0.0
 46
0.0
 47
0.0
 48
0.0
 49
0.0
140
0.0
141
0.0
142
1.0
143
1.0
 70
   688
 72
     1
 73
     0
 74
     5
  7

 75
    16
147
1.0
148
0.0
149
0.0
100
AcDbLayout
  1
Layout1
 70
     1
 71
     1
 10
0.0
 20
0.0
 11
420.0
 21
297.0
 12
0.0
 22
0.0
 32
0.0
 14
1.0000000000E+20
 24
1.0000000000E+20
 34
1.0000000000E+20
 15
-1.0000000000E+20
 25
-1.0000000000E+20
 35
-1.0000000000E+20
146
0.0
 13
0.0
 23
0.0
 33
0.0
 16
1.0
 26
0.0
 36
0.0
 17
0.0
 27
1.0
 37
0.0
 76
     0
330
1B
  0
LAYOUT
  5
26
102
{ACAD_REACTORS
330
1A
102
}
330
1A
100
AcDbPlotSettings
  1

  2
none_device
  4

  6

 40
0.0
 41
0.0
 42
0.0
 43
0.0
 44
0.0
 45
0.0
 46
0.0
 47
0.0
 48
0.0
 49
0.0
140
0.0
141
0.0
142
1.0
143
1.0
 70
   688
 72
     1
 73
     0
 74
     5
  7

 75
    16
147
1.0
148
0.0
149
0.0
100
AcDbLayout
  1
Layout2
 70
     1
 71
     2
 10
0.0
 20
0.0
 11
0.0
 21
0.0
 12
0.0
 22
0.0
 32
0.0
 14
0.0
 24
0.0
 34
0.0
 15
0.0
 25
0.0
 35
0.0
146
0.0
 13
0.0
 23
0.0
 33
0.0
 16
1.0
 26
0.0
 36
0.0
 17
0.0
 27
1.0
 37
0.0
 76
     0
330
23
  0
LAYOUT
  5
22
102
{ACAD_REACTORS
330
1A
102
}
330
1A
100
AcDbPlotSettings
  1

  2
none_device
  4
Letter_(8.50_x_11.00_Inches)
  6

 40
6.35
 41
6.35
 42
6.35000508
 43
6.35000508
 44
215.9
 45
279.4
 46
0.0
 47
0.0
 48
0.0
 49
0.0
140
0.0
141
0.0
142
1.0
143
1.0
 70
  1712
 72
     1
 73
     0
 74
     0
  7

 75
     0
147
1.0
148
0.0
149
0.0
100
AcDbLayout
  1
Model
 70
     1
 71
     0
 10
0.0
 20
0.0
 11
279.4
 21
215.9
 12
0.0
 22
0.0
 32
0.0
 14
0.0
 24
0.0
 34
0.0
 15
279.4
 25
215.9
 35
0.0
146
0.0
 13
0.0
 23
0.0
 33
0.0
 16
1.0
 26
0.0
 36
0.0
 17
0.0
 27
1.0
 37
0.0
 76
     0
330
1F
331
29
  0
MLINESTYLE
  5
18
102
{ACAD_REACTORS
330
17
102
}
330
17
100
AcDbMlineStyle
  2
Standard
 70
     0
  3

 62
   256
 51
90.0
 52
90.0
 71
     2
 49
0.5
 62
   256
  6
BYLAYER
 49
-0.5
 62
   256
  6
BYLAYER
  0
ACDBPLACEHOLDER
  5
F
102
{ACAD_REACTORS
330
E
102
}
330
E
  0
SCALE
  5
48
102
{ACAD_REACTORS
330
47
102
}
330
47
100
AcDbScale
 70
     0
300
1:1
140
1.0
141
1.0
290
     1
  0
SCALE
  5
49
102
{ACAD_REACTORS
330
47
102
}
330
47
100
AcDbScale
 70
     0
300
1:2
140
1.0
141
2.0
290
     0
  0
SCALE
  5
4A
102
{ACAD_REACTORS
330
47
102
}
330
47
100
AcDbScale
 70
     0
300
1:4
140
1.0
141
4.0
290
     0
  0
SCALE
  5
4B
102
{ACAD_REACTORS
330
47
102
}
330
47
100
AcDbScale
 70
     0
300
1:5
140
1.0
141
5.0
290
     0
  0
SCALE
  5
4C
102
{ACAD_REACTORS
330
47
102
}
330
47
100
AcDbScale
 70
     0
300
1:8
140
1.0
141
8.0
290
     0
  0
SCALE
  5
4D
102
{ACAD_REACTORS
330
47
102
}
330
47
100
AcDbScale
 70
     0
300
1:10
140
1.0
141
10.0
290
     0
  0
SCALE
  5
4E
102
{ACAD_REACTORS
330
47
102
}
330
47
100
AcDbScale
 70
     0
300
1:16
140
1.0
141
16.0
290
     0
  0
SCALE
  5
4F
102
{ACAD_REACTORS
330
47
102
}
330
47
100
AcDbScale
 70
     0
300
1:20
140
1.0
141
20.0
290
     0
  0
SCALE
  5
50
102
{ACAD_REACTORS
330
47
102
}
330
47
100
AcDbScale
 70
     0
300
1:30
140
1.0
141
30.0
290
     0
  0
SCALE
  5
51
102
{ACAD_REACTORS
330
47
102
}
330
47
100
AcDbScale
 70
     0
300
1:40
140
1.0
141
40.0
290
     0
  0
SCALE
  5
52
102
{ACAD_REACTORS
330
47
102
}
330
47
100
AcDbScale
 70
     0
300
1:50
140
1.0
141
50.0
290
     0
  0
SCALE
  5
53
102
{ACAD_REACTORS
330
47
102
}
330
47
100
AcDbScale
 70
     0
300
1:100
140
1.0
141
100.0
290
     0
  0
SCALE
  5
54
102
{ACAD_REACTORS
330
47
102
}
330
47
100
AcDbScale
 70
     0
300
2:1
140
2.0
141
1.0
290
     0
  0
SCALE
  5
55
102
{ACAD_REACTORS
330
47
102
}
330
47
100
AcDbScale
 70
     0
300
4:1
140
4.0
141
1.0
290
     0
  0
SCALE
  5
56
102
{ACAD_REACTORS
330
47
102
}
330
47
100
AcDbScale
 70
     0
300
8:1
140
8.0
141
1.0
290
     0
  0
SCALE
  5
57
102
{ACAD_REACTORS
330
47
102
}
330
47
100
AcDbScale
 70
     0
300
10:1
140
10.0
141
1.0
290
     0
  0
SCALE
  5
58
102
{ACAD_REACTORS
330
47
102
}
330
47
100
AcDbScale
 70
     0
300
100:1
140
100.0
141
1.0
290
     0
  0
SCALE
  5
59
102
{ACAD_REACTORS
330
47
102
}
330
47
100
AcDbScale
 70
     0
300
1/128" = 1'-0"
140
0.0078125
141
12.0
290
     0
  0
SCALE
  5
5A
102
{ACAD_REACTORS
330
47
102
}
330
47
100
AcDbScale
 70
     0
300
1/64" = 1'-0"
140
0.015625
141
12.0
290
     0
  0
SCALE
  5
5B
102
{ACAD_REACTORS
330
47
102
}
330
47
100
AcDbScale
 70
     0
300
1/32" = 1'-0"
140
0.03125
141
12.0
290
     0
  0
SCALE
  5
5C
102
{ACAD_REACTORS
330
47
102
}
330
47
100
AcDbScale
 70
     0
300
1/16" = 1'-0"
140
0.0625
141
12.0
290
     0
  0
SCALE
  5
5D
102
{ACAD_REACTORS
330
47
102
}
330
47
100
AcDbScale
 70
     0
300
3/32" = 1'-0"
140
0.09375
141
12.0
290
     0
  0
SCALE
  5
5E
102
{ACAD_REACTORS
330
47
102
}
330
47
100
AcDbScale
 70
     0
300
1/8" = 1'-0"
140
0.125
141
12.0
290
     0
  0
SCALE
  5
5F
102
{ACAD_REACTORS
330
47
102
}
330
47
100
AcDbScale
 70
     0
300
3/16" = 1'-0"
140
0.1875
141
12.0
290
     0
  0
SCALE
  5
60
102
{ACAD_REACTORS
330
47
102
}
330
47
100
AcDbScale
 70
     0
300
1/4" = 1'-0"
140
0.25
141
12.0
290
     0
  0
SCALE
  5
61
102
{ACAD_REACTORS
330
47
102
}
330
47
100
AcDbScale
 70
     0
300
3/8" = 1'-0"
140
0.375
141
12.0
290
     0
  0
SCALE
  5
62
102
{ACAD_REACTORS
330
47
102
}
330
47
100
AcDbScale
 70
     0
300
1/2" = 1'-0"
140
0.5
141
12.0
290
     0
  0
SCALE
  5
63
102
{ACAD_REACTORS
330
47
102
}
330
47
100
AcDbScale
 70
     0
300
3/4" = 1'-0"
140
0.75
141
12.0
290
     0
  0
SCALE
  5
64
102
{ACAD_REACTORS
330
47
102
}
330
47
100
AcDbScale
 70
     0
300
1" = 1'-0"
140
1.0
141
12.0
290
     0
  0
SCALE
  5
65
102
{ACAD_REACTORS
330
47
102
}
330
47
100
AcDbScale
 70
     0
300
1-1/2" = 1'-0"
140
1.5
141
12.0
290
     0
  0
SCALE
  5
66
102
{ACAD_REACTORS
330
47
102
}
330
47
100
AcDbScale
 70
     0
300
3" = 1'-0"
140
3.0
141
12.0
290
     0
  0
SCALE
  5
67
102
{ACAD_REACTORS
330
47
102
}
330
47
100
AcDbScale
 70
     0
300
6" = 1'-0"
140
6.0
141
12.0
290
     0
  0
SCALE
  5
68
102
{ACAD_REACTORS
330
47
102
}
330
47
100
AcDbScale
 70
     0
300
1'-0" = 1'-0"
140
12.0
141
12.0
290
     0
  0
ENDSEC
  0
EOF
